Your One-Stop Source For
Music Lyrics
Bass and Guitar Tabs
and More...
Music Lyrics Bass and Guitar Tabs

 

The Tabs Are Below

Learn To Read Tab
Chords Handbook
Corrections & Additions
Get Official Tab
311 tabs @ 911Tabs

Song: Beyond the Gray Sky

Band: 311

Album: Evolver

Music by T. Mahoney

 

 

 

Riff 1 clean w/auto wah & delay

------------------------------------------------------------------------------

------------------------------------------------------------------------------

----------------------------------------8-10-11-10-8---10-8-------------------

-----------9----8----------------8-9-11-------------11------9-9/11------------

-8-9-11------11---9-9-8-8---9-11-----------------------------------10-9p8-9-8-

--------11--------------------------------------------------------------------

 

 

 

Riff 2 clean w/auto wah & delay

---------------------

---------------------

-----------(10)-10-8-

------11----11--11-9-

-9h11----------------

---------9-----------

 

 

 

Riff 3 clean

---9---9--7--7-

---9---9--7--7-

--10--10--8--8-

---------------

---------------

---------------

played with slight variation

 

 

 

Riff 4 clean wauto wah & delay

---------9-9--------------------------

-------9-----12--------------9-9------

----10----------11-8------10-----11-8-

-11------------------9-11-------------

--------------------------------------

--------------------------------------

 

----------9-9----------------------------

--------9-----12----------------9-9------

-----10----------11-8--------10-----11-8-

-9-11------------------9-8-11------------

-----------------------------------------

-----------------------------------------

 

 

 

Before chorus another guitar plays random muted strings & harmonics

 

Riff 5 w/distortion

----------------

----------------

----------------

-6-6--4---4/6-x-

-4-4--2---2/4-x-

-4-4--2---2/4-x-

 

 

 

Riff 6 clean w/auto wah & delay

--------------------------------------------

----------------------------------------9-9-

------------------------8-10-8-10-11-10-----

------------8----8-9-11---------------------

-8h9-8-9-11---11----------------------------

--------------------------------------------

 

---------------------------------------------

-14p13p12-9-11-------------------------------

---------------11-8--------8-----------------

--------------------9-8-11--------11-9-------

-----------------------------11-9------9\8\6-

---------------------------------------------

 

 

 

Solo w/distortion

-14-13-11----13-11-----------------------13-16-16-13-16-16-16-13~-

----------14-------12-11-12-12/14-14\-----------------------------

------------------------------------------------------------------

------------------------------------------------------------------

------------------------------------------------------------------

------------------------------------------------------------------

 

------------------------------------------------------11-13-14-

-16-14-16-14-14-12-12-12-14------------------11-12-14----------

----------------------------13\-----10-11-13-------------------

---------------------------------------------------------------

---------------------------------------------------------------

---------------------------------------------------------------

 

-16~-14-13----13-14-16-14-13----14-13-----------------------------

-----------16----------------16-------16-14-16-14----------14-16~-

--------------------------------------------------16-15-16--------

------------------------------------------------------------------

------------------------------------------------------------------

------------------------------------------------------------------

 

-------------13-14-17-14-13~-16h17/19/21-21-21~-18h21p18-18-16-13-

-14-------16------------------------------------------------------

----16-15---------------------------------------------------------

------------------------------------------------------------------

------------------------------------------------------------------

------------------------------------------------------------------

 

-13h16p13----------------------------------14h16-13h16-13h16-13-

----------16-14-14h16p14-------------14-16----------------------

-------------------------15-13-13h15----------------------------

----------------------------------------------------------------

----------------------------------------------------------------

----------------------------------------------------------------

 

---------------------

-14b-----------------

-----15-13h15-15-13\-

---------------------

---------------------

---------------------

 

 

 

Riff 7 w/distortion

--------------------------4---4---

----------------------------4---4-

-----------------------6----------

-2--2--2--4--4--x-4-2--6----------

-2--2--2--4--4--x-4-2--4----------

-0--0--0--2--2--x-2-0--4----------

hold.......

 

 

Click here to return to my 311 tabs page

The Tablature is Copyright its respective owners.

Sign Up For My Newsletter
Subscribe | Unsubscribe

Site Map | Disclaimer | Privacy Policy | Media Kit | Submissions/Corrections

Website © 2000-2014 mattsmusicpage.com. All rights reserved.

Legal & DMCA: Matt's Music Page has been providing lyrics and tabs in a legal way, paying royalties each year to a few organizations. Then, all lyrics and tabs were removed from the site. Now, there's a new owner to the site, which purchased it August 26, 2014, and he is in negotiation to obtain licensing from BMI at the moment. If you have a specific DMCA request -- please do not hesitate to contact me via the contact button on top. I will do my very best to keep this site fully legal.

Get our toolbar!