Your One-Stop Source For
Music Lyrics
Bass and Guitar Tabs
and More...
>Music Lyrics Bass and Guitar Tabs

 

The Tabs Are Below

Learn To Read Tab
Chords Handbook
Corrections & Additions
Get Official Tab
311 tabs @ 911Tabs

 

 

"Beautiful Disaster"

by 311

tabbed by ikswejahan@aol.com

Standard tuning

 

I have been getting a lot of requests for this song, so I decided to sit down

and tab this one out.

 

Intro Riff:

a--2-0-2------------

E--------3-2-0-2-3-- play about 8x

 

Solo #1:

e-2--2-2-3-2-0-2-0----------0-0-0-2-0-|

b-------------------3-3-3-3-----------| play 2x

 

Solo #1: (continued)

e-2-3-5--7-5-3--3-5-7-5-3-5-7-5-3-2-0-2-0-------0-0-2-0-

b-----------------------------------------3-3-3---------

 

Verse Riff 1:

Bm G E F#

e-2-2--3-3--0-0--2-2--

b-3-3--3-3--0-0--2-2-- play 2x

g-4-4--4-4--1-1--3-3--

 

Verse Riff 2:

B5 A5 G5 E5 F#5

g-4-4-4--2-2----------------------------------

d-4-4-4--2-2--5-5-5-5-5--2-2-2-2-2--4-4-4-4-4- play

a-2-2-2--0-0--5-5-5-5-5--2-2-2-2-2--4-4-4-4-4- 2x

E-------------3-3-3-3-3--0-0-0-0-0--2-2-2-2-2-

 

***PLAY INTRO RIFF 4X***

 

***PLAY VERSE RIFF 1 2X***

 

***PLAY VERSE RIFF 2 2X***

 

***PLAY INTRO RIFF 4X***

 

CHORUS:

E5 C#5 F#5 B5

g--------6-6-6---------4-4-4--

d-2-2-2--6-6-6--4-4-4--4-4-4-- play 6x

a-2-2-2--4-4-4--4-4-4--2-2-2--

E-0-0-0--4-4-4--2-2-2--2-2-2--

 

POST-CHORUS:

a-2-2------------------ play about 4 times

E-0-0-3br-0--3br--3br--

 

SOLO #2:

e-2--2-2-2-3-2-0-2-0------------0-0-0-2-0-| play 2x

b--------------------3-3--3-3-3-----------|

 

SOLO #2 (continued):

e-2-3-5--7-9-10--9-10-12-10-12-14-12-14-15-14-12-12-10-|

b------------------------------------------------------|

 

SOLO #2 (continued again):

e-10-9-10-9-7-9-7-5-7-5-2--|

b--------------------------|

 

***GUITAR OUT FOR A LITTLE WHILE***

 

***VERSE RIFF 2 2X***

 

***INTRO RIFF 4X***

 

***CHORUS ABOUT 6X***

 

***POST-CHORUS 4X***

 

Well that's the whole thing. I don't think I left any parts out. If you

have any questions or requests just write me at ikswejahan@aol.com. Also

write me if you wanna sign up for

my tab mailing list.

 

Click here to return to my 311 tabs page

The Tablature is Copyright its respective owners.

Sign Up For My Newsletter
Subscribe | Unsubscribe

Site Map | Disclaimer | Privacy Policy | Media Kit | Submissions/Corrections

Website © 2000-2014 mattsmusicpage.com. All rights reserved.

Legal & DMCA: Matt's Music Page has been providing lyrics and tabs in a legal way, paying royalties each year to a few organizations. Then, all lyrics and tabs were removed from the site. Now, there's a new owner to the site, which purchased it August 26, 2014, and he is in negotiation to obtain licensing from BMI at the moment. If you have a specific DMCA request -- please do not hesitate to contact me via the contact button on top. I will do my very best to keep this site fully legal.

Get our toolbar!

 

Lot 7 weight-driven clock pulleys, brass or brass & steel, banjo, shelf or wall
$9.99
Lot 7 weight-driven clock pulleys, brass or brass & steel, banjo, shelf or wall picture


VINTAGE WILLARD USA BANJO PENDULUM WALL CLOCK GERMANY MOVEMENT AND WALNUT CASE
$19.0
VINTAGE WILLARD USA BANJO PENDULUM WALL CLOCK GERMANY MOVEMENT AND WALNUT CASE picture


Vintage Syroco Hillbilly Band Figure Figurine Banjo Instrument Player 1940s
$3.0
Vintage Syroco Hillbilly Band Figure Figurine Banjo Instrument Player 1940s  picture


*Very Rare* Vintage Georgian Banjo By Deluxe Clock & Mfg Co.
$125.0
*Very Rare* Vintage Georgian Banjo By Deluxe Clock & Mfg Co. picture


Vintage Enamel Banjo Lapel Hat Pin Tie Tack Pinback
$7.99
Vintage Enamel Banjo Lapel Hat Pin Tie Tack Pinback picture