Your One-Stop Source For
Music Lyrics
Bass and Guitar Tabs
and More...
Music Lyrics Bass and Guitar Tabs

 

The Tabs Are Below

Learn To Read Tab
Chords Handbook
Corrections & Additions
Get Official Tab
311 tabs @ 911Tabs

"Solar Flare" by: 311

 

Tabbed by: Chris Gill

Email: CGill1403@aol.com

 

Music By: Nick Hexum, Tim Mahoney, Chad Sexton, Aaron Wills

Lyrics By: Nick Hexum, Doug Martinez

 

Tuning: E A D G B e

 

Tim does a pick slide before the bass intro begins

 

(break during bass intro)

 

e|---------------------------|

B|---------------------------|

G|---------------------------|

D|--2---5---2-----2---5---2--|

A|--2---5---2-----2---5---2--|

E|--0---3---0-----0---3---0--|

 

e|------------------------------------------------|

B|------------------------------------------------|

G|------------------------------------------------|

D|--2-----5---2--7--5-----2---2---5---2--7--5--2--| x3

A|--2-----5---2--7--5-----2---2---5---2--7--5--2--|

E|--0-----3---0--5--3-----0---0---3---0--5--3--0--|

 

e|-------------------------------------------------|

B|-------------------------------------------------|

G|-------------------------------------------------|

D|--2-----5---2--7--5-----2---5---2-----2---5---2--|

A|--2-----5---2--7--5-----2---5---2-----2---5---2--|

E|--0-----3---0--5--3-----0---3---0-----0---3---0--|

 

e|------------------------------------------------|

B|------------------------------------------------|

G|------------------------------------------------|

D|--2-----5---2--7--5-----2---2---5---2--7--5--2--| x3

A|--2-----5---2--7--5-----2---2---5---2--7--5--2--|

E|--0-----3---0--5--3-----0---0---3---0--5--3--0--|

 

e|------------------------------------------------|

B|------------------------------------------------|

G|------------------------------------------------|

D|--2-----5---2--7--5-----2---5---2----2---5---2--|

A|--2-----5---2--7--5-----2---5---2----2---5---2--|

E|--0-----3---0--5--3-----0---3---0----0---3---0--|

 

e|------------------------------------------------|

B|------------------------------------------------|

G|------------------------------------------------|

D|------------------------------------------------| x2

A|--2-----5---2--7--5-----2---2---5---2--7--5--2--|

E|------------------------------------------------|

w/ octaver

 

e|------------------------------------------------|

B|------------------------------------------------|

G|------------------------------------------------|

D|--2-----5---2--7--5-----2---2---5---2--7--5--2--|

A|--2-----5---2--7--5-----2---2---5---2--7--5--2--|

E|--0-----3---0--5--3-----0---0---3---0--5--3--0--|

 

e|------------------------------------------------|

B|------------------------------------------------|

G|------------------------------------------------|

D|--2-----5---2--7--5-----2---5---2----2---5---2--|

A|--2-----5---2--7--5-----2---5---2----2---5---2--|

E|--0-----3---0--5--3-----0---3---0----0---3---0--|

 

e|------------------------------------------------|

B|------------------------------------------------|

G|------------------------------------------------|

D|------------------------------------------------| x2

A|--2-----5---2--7--5-----2---2---5---2--7--5--2--|

E|------------------------------------------------|

w/ octaver

 

e|------------------------------------------------|

B|------------------------------------------------|

G|------------------------------------------------|

D|--2-----5---2--7--5-----2---2---5---2--7--5--2--|

A|--2-----5---2--7--5-----2---2---5---2--7--5--2--|

E|--0-----3---0--5--3-----0---0---3---0--5--3--0--|

 

e|------------------------------------------------|

B|------------------------------------------------|

G|------------------------------------------------|

D|--2-----5---2--7--5-----2---5---2----2---5---2--|

A|--2-----5---2--7--5-----2---5---2----2---5---2--|

E|--0-----3---0--5--3-----0---3---0----0---3---0--|

 

e|---------------------------------------------------------------------------|

B|---------------------------------------------------------------------------|

G|---------------------------------------------------------------------------|

D|------------------------------------------------------9--------9-----9-----| x3

A|--5----5--5--5--5----4---4--4--3--3--3--3--2----2--2--7--2--2--7--2--7-----|

E|--3----3--3--3--3----2---2--2--1--1--1--1--0----0--0-----0--0-----0--------|

 

e|-----------------------------------------------------------------------|

B|-----------------------------------------------------------------------|

G|-----------------------------------------------------------------------|

D|-----------------------------------------------------------------------|

A|--5----5--5--5--5----4---4--4--3--3--3--3--2----2--2----2---2----2--2--|

E|--3----3--3--3--3----2---2--2--1--1--1--1--0----0--0----0---0----0--0--|

 

e|------------------------------------------------|

B|------------------------------------------------|

G|------------------------------------------------|

D|--2-----5---2--7--5-----2---2---5---2--7--5--2--| x3

A|--2-----5---2--7--5-----2---2---5---2--7--5--2--|

E|--0-----3---0--5--3-----0---0---3---0--5--3--0--|

 

e|-------------------------------------------------|

B|-------------------------------------------------|

G|-------------------------------------------------|

D|--2-----5---2--7--5-----2---5---2-----2---5---2--|

A|--2-----5---2--7--5-----2---5---2-----2---5---2--|

E|--0-----3---0--5--3-----0---3---0-----0---3---0--|

 

e|------------------------------------------------|

B|------------------------------------------------|

G|------------------------------------------------|

D|------------------------------------------------| x2

A|--2-----5---2--7--5-----2---2---5---2--7--5--2--|

E|------------------------------------------------|

w/ octaver

 

e|------------------------------------------------|

B|------------------------------------------------|

G|------------------------------------------------|

D|--2-----5---2--7--5-----2---2---5---2--7--5--2--|

A|--2-----5---2--7--5-----2---2---5---2--7--5--2--|

E|--0-----3---0--5--3-----0---0---3---0--5--3--0--|

 

e|------------------------------------------------|

B|------------------------------------------------|

G|------------------------------------------------|

D|--2-----5---2--7--5-----2---5---2----2---5---2--|

A|--2-----5---2--7--5-----2---5---2----2---5---2--|

E|--0-----3---0--5--3-----0---3---0----0---3---0--|

 

e|---------------------------------------------------------------------------|

B|---------------------------------------------------------------------------|

G|---------------------------------------------------------------------------|

D|------------------------------------------------------9--------9-----9-----| x3

A|--5----5--5--5--5----4---4--4--3--3--3--3--2----2--2--7--2--2--7--2--7-----|

E|--3----3--3--3--3----2---2--2--1--1--1--1--0----0--0-----0--0-----0--------|

 

e|---------------------------------------------------------|

B|---------------------------------------------------------|

G|---------------------------------------------------------|

D|------------------------------------------------------2--|

A|--5----5--5--5--5----4---4--4--3--3--3--3--2----2--2--2--|

E|--3----3--3--3--3----2---2--2--1--1--1--1--0----0--0--0--|

 

 

| / slide up

| \ slide down

| h hammer-on

| p pull-off

| ~ vibrato

| + harmonic

| x Mute note

 

 

Click here to return to my 311 tabs page

The Tablature is Copyright its respective owners.

Sign Up For My Newsletter
Subscribe | Unsubscribe

Site Map | Disclaimer | Privacy Policy | Media Kit | Submissions/Corrections

Website © 2000-2014 mattsmusicpage.com. All rights reserved.

Legal & DMCA: Matt's Music Page has been providing lyrics and tabs in a legal way, paying royalties each year to a few organizations. Then, all lyrics and tabs were removed from the site. Now, there's a new owner to the site, which purchased it August 26, 2014, and he is in negotiation to obtain licensing from BMI at the moment. If you have a specific DMCA request -- please do not hesitate to contact me via the contact button on top. I will do my very best to keep this site fully legal.

Get our toolbar!

 

1939 LYRIC THEATRE New York PHOTO
$5.83
1939 LYRIC THEATRE New York PHOTO picture


Star Spangled Banner or Marines Hymn lyrics signed by WWII Charles W. Lindberg
$10.0
Star Spangled Banner or Marines Hymn lyrics signed by WWII Charles W. Lindberg picture


OLD LARGE HISTORIC PHOTO OF THE LYRIC THEATRE, SYDNEY c1930s, WAR BONDS BOOTH
$7.42
OLD LARGE HISTORIC PHOTO OF THE LYRIC THEATRE, SYDNEY c1930s, WAR BONDS BOOTH picture


SONG OF REVOLUTION CARD SET WITH 13 MOST FAVORED COMMUNIST SONGS LYRICS + NOTES
$24.99
SONG OF REVOLUTION CARD SET WITH 13 MOST FAVORED COMMUNIST SONGS LYRICS + NOTES picture


OLD LARGE HISTORIC PHOTO OF THE LYRIC THEATRE, SYDNEY c1930s, WAR LOANS BOOTH
$7.42
OLD LARGE HISTORIC PHOTO OF THE LYRIC THEATRE, SYDNEY c1930s, WAR LOANS BOOTH picture