Your One-Stop Source For
Music Lyrics
Bass and Guitar Tabs
and More...
Music Lyrics Bass and Guitar Tabs

 

The Tabs Are Below

Learn To Read Tab
Chords Handbook
Corrections & Additions
Get Official Tab
311 tabs @ 911Tabs

"Long for the Flowers" by: 311

 

Music By: Nick Hexum, Tim Mahoney, Aaron Wills, Chad Sexton

Lyrics By: Nick Hexum, Doug Martinez

 

Tabbed by: Chris Gill

Email: CGill1403@aol.com

 

Both Guitars Tuned: E A D G B e

 

Rhythm Guitar - Nick

Lead Guitar - Tim

 

Album Version

 

 

Lead

e|----------------------------------------------------------------------|

B|----------------------------------------------------------------------|

G|------------------------------------5--5--5---5---5--7--7---7--5---5--|

D|--8--8--8---8---8--5--5--5---5---5--5--5--5---5---5--7--7---7--5---5--|

A|--8--8--8---8---8--5--5--5---5---5--3--3--3---3---3--5--5---5--3---3--|

E|--6--6--6---6---6--3--3--3---3---3------------------------------------|

PM....................................................................... x2

Rhythm- Rest

 

 

Lead

e|----------------------------------------------------------------------|

B|----------------------------------------------------------------------|

G|------------------------------------5--5--5---5---5--7--7---7--5---5--|

D|--8--8--8---8---8--5--5--5---5---5--5--5--5---5---5--7--7---7--5---5--|

A|--8--8--8---8---8--5--5--5---5---5--3--3--3---3---3--5--5---5--3---3--|

E|--6--6--6---6---6--3--3--3---3---3------------------------------------|

PM....................................................................... x4

Rhythm

e|----------------------------------------------------------------------|

B|----------------------------------------------------------------------|

G|------------------------------------5--5--5---5---5--7--7---7--5---5--|

D|--8--8--8---8---8--5--5--5---5---5--5--5--5---5---5--7--7---7--5---5--|

A|--8--8--8---8---8--5--5--5---5---5--3--3--3---3---3--5--5---5--3---3--|

E|--6--6--6---6---6--3--3--3---3---3------------------------------------|

 

 

Lead

e|-----------------------------------------------------------------------------|

B|----------------------------------------------------15-----------------------|

G|----------------------------------------------14-17----17-14-----------------|

D|--4*----------4*----------4*------------15-17----------------17-15-----------|

A|--------4*----------4*------------15-17----------------------------17-15-----|

E|----------------------------15-17----------------------------------------17--|

Rhythm x2

e|-----------------------------------------------------------------------------|

B|-----------------------------------------------------------------------------|

G|-------------------------------------5--5--5---5---5--7--7---7--5---5--------|

D|--4*----------4*----------4*---------5--5--5---5---5--7--7---7--5---5--------|

A|--------4*----------4*---------------3--3--3---3---3--5--5---5--3---3--------|

E|-----------------------------------------------------------------------------|

 

 

Lead

e|---------------------------------------------------------------------------|

B|---------------------------------------------------------------------------|

G|---------------------------------------------------------------------------|

D|--15---------------------------------15------------------------------------|

A|--------------17---------------15-17-------------17------------------15-17-|

E|--------15h17-------15---15-17-------------15h17---------15----15-17-------|

Rhythm x2

e|---------------------------------------------------------------------------|

B|---------------------------------------------------------------------------|

G|---------------------------------------5--5--5---5---5--7--7---7--5---5----|

D|-----8--8--8---8---8--5--5--5---5---5--5--5--5---5---5--7--7---7--5---5----|

A|-----8--8--8---8---8--5--5--5---5---5--3--3--3---3---3--5--5---5--3---3----|

E|-----6--6--6---6---6--3--3--3---3---3--------------------------------------|

 

Lead

e|-----------------------------------------------------------------------------|

B|----------------------------------------------------15-----------------------|

G|----------------------------------------------14-17----17-14-----------------|

D|--4*----------4*----------4*------------15-17----------------17-15-----------|

A|--------4*----------4*------------15-17----------------------------17-15-----|

E|----------------------------15-17----------------------------------------17--|

Rhythm x2

e|-----------------------------------------------------------------------------|

B|-----------------------------------------------------------------------------|

G|-------------------------------------5--5--5---5---5--7--7---7--5---5--------|

D|--4*----------4*----------4*---------5--5--5---5---5--7--7---7--5---5--------|

A|--------4*----------4*---------------3--3--3---3---3--5--5---5--3---3--------|

E|-----------------------------------------------------------------------------|

 

Lead

e|---------------------------------------------------------------------------|

B|---------------------------------------------------------------------------|

G|---------------------------------------------------------------------------|

D|--15---------------------------------15------------------------------------|

A|--------------17---------------15-17-------------17------------------15-17-|

E|--------15h17-------15---15-17-------------15h17---------15----15-17-------|

Rhythm x2

e|---------------------------------------------------------------------------|

B|---------------------------------------------------------------------------|

G|---------------------------------------5--5--5---5---5--7--7---7--5---5----|

D|-----8--8--8---8---8--5--5--5---5---5--5--5--5---5---5--7--7---7--5---5----|

A|-----8--8--8---8---8--5--5--5---5---5--3--3--3---3---3--5--5---5--3---3----|

E|-----6--6--6---6---6--3--3--3---3---3--------------------------------------|

 

Lead

e|--------------------------------------------------------------------|

B|--------------------------------------------------------------------|

G|--------------------------------------------------------------------|

D|-10-10-10--10--x-10-10--x-10--10--9--9--9---9---x--9--9--x---9---9--|

A|-10-10-10--10--x-10-10--x-10--10--9--9--9---9---x--9--9--x---9---9--|

E|--8--8--8---8--x--8--8--x--8---8--7--7--7---7---x--7--7--x---7---7--|

PM.....................................................................

Rhythm x2

e|--------------------------------------------------------------------|

B|--------------------------------------------------------------------|

G|--------------------------------------------------------------------|

D|-10-10-10--10--x-10-10--x-10--10--9--9--9---9---x--9--9--x---9---9--|

A|-10-10-10--10--x-10-10--x-10--10--9--9--9---9---x--9--9--x---9---9--|

E|--8--8--8---8--x--8--8--x--8---8--7--7--7---7---x--7--7--x---7---7--|

 

Lead does a pick slide after rhythm plays the following part

 

Rhythm

e|-------------------------|

B|-------------------------|

G|-------------------------|

D|--9----7----5----4----2--|

A|--9----7----5----4----2--|

E|--7----5----3----2----0--|

 

Lead- Solo

e|-------------------------------------------------------------------------------------|

B|--18-15-----15-----------------------------------------------------------------------|

G|--------17-----17-14-17-14----14-----------------------------------------------------|

D|---------------------------17----17-15-17-15----15-----------------------------------|

A|---------------------------------------------17----17-15-17-15----15----15-17-17-17--|

E|---------------------------------------------------------------17----17--------------|

 

e|-------------------------------------------------------------------------------|

B|--18-15-----15-----------------------------------------------------------------|

G|--------17-----17-14-17-14----14----------------------------------------17-----|

D|---------------------------17----17-15-17-15----15----15-17-15-15-17/19----17--|

A|---------------------------------------------17----17--------------------------|

E|-------------------------------------------------------------------------------|

 

e|-------------------------------------------------------------------------------------|

B|--------------15-17--18--15------18--15------18--15------18-15----18-15----18-15-----|

G|--17-14----17----------------17----------17----------17--------17-------17-------17--|

D|-------------------------------------------------------------------------------------|

A|-------------------------------------------------------------------------------------|

E|-------------------------------------------------------------------------------------|

 

e|-------------------------------------------------------------------------------------|

B|--18-15----18/19/21--------------------------------------------------------------13--|

G|--------17-----------------------------------------------------12----12-15-12-15-----|

D|---------------------------------------------13----13-15-13-15----15-----------------|

A|---------------------------13----13-15-13-15----15-----------------------------------|

E|---------------------13-15----15-----------------------------------------------------|

 

e|----------19-----------16------------------------------------------------------------|

B|--16/19------19-16--------16--13\11--------16-13----13-------------------------------|

G|-------------------18---------------15--15-------15----15-12-15---15-12----12--------|

D|------------------------------------------------------------------------15----15-13--|

A|-------------------------------------------------------------------------------------|

E|-------------------------------------------------------------------------------------|

 

e|-----------------|

B|-----------------|

G|-----------------|

D|--15-13----13----|

A|--------15----15-|

E|-----------------|

 

Rhythm plays this during the solo

e|---------------------------------------------------------------------------|

B|---------------------------------------------------------------------------|

G|---------------------------------------5--5--5---5---5--7--7---7--5---5----|

D|-----8--8--8---8---8--5--5--5---5---5--5--5--5---5---5--7--7---7--5---5----| x4

A|-----8--8--8---8---8--5--5--5---5---5--3--3--3---3---3--5--5---5--3---3----|

E|-----6--6--6---6---6--3--3--3---3---3--------------------------------------|

 

e|--------------------------------------------------------------------|

B|--------------------------------------------------------------------|

G|--------------------------------------------------------------------|

D|-10-10-10--10--x-10-10--x-10--10--9--9--9---9---x--9--9--x---9---9--| x2

A|-10-10-10--10--x-10-10--x-10--10--9--9--9---9---x--9--9--x---9---9--|

E|--8--8--8---8--x--8--8--x--8---8--7--7--7---7---x--7--7--x---7---7--|

 

e|-------------------------|

B|-------------------------|

G|-------------------------|

D|--9----7----5----4----2--|

A|--9----7----5----4----2--|

E|--7----5----3----2----0--|

 

 

| / slide up

| \ slide down

| h hammer-on

| p pull-off

| ~ vibrato

| * harmonic

| x Mute note

 

 

Click here to return to my 311 tabs page

The Tablature is Copyright its respective owners.

Sign Up For My Newsletter
Subscribe | Unsubscribe

Site Map | Disclaimer | Privacy Policy | Media Kit | Submissions/Corrections

Website © 2000-2014 mattsmusicpage.com. All rights reserved.

Legal & DMCA: Matt's Music Page has been providing lyrics and tabs in a legal way, paying royalties each year to a few organizations. Then, all lyrics and tabs were removed from the site. Now, there's a new owner to the site, which purchased it August 26, 2014, and he is in negotiation to obtain licensing from BMI at the moment. If you have a specific DMCA request -- please do not hesitate to contact me via the contact button on top. I will do my very best to keep this site fully legal.

Get our toolbar!

 

Starbucks You Are Here Coffee Mug/Cup KENTUCKY - Horses, Banjo, Blue, White
$19.99
Starbucks You Are Here Coffee Mug/Cup KENTUCKY - Horses, Banjo, Blue, White picture


KNOWLES ROCKWELL HERITAGE "THE BANJO PLAYER" FIRST EDITION 1989 PLATE COA
$5.99
KNOWLES ROCKWELL HERITAGE


Vintage Postcard 1981 Disney World Banjo Kings Main Street USA 1981 Postmark
$4.99
 Vintage Postcard 1981 Disney World Banjo Kings Main Street USA 1981 Postmark picture


Banjo Barometer With Thermometer Hygrometer 490mm
$84.76
Banjo Barometer With Thermometer Hygrometer 490mm picture


ANTIQUE JAPANESE NIPPON FIGURINE SET OF 3 WOMEN GEISHA PLAYING DRUM BANJO FAN
$24.0
ANTIQUE JAPANESE NIPPON FIGURINE SET OF 3 WOMEN GEISHA PLAYING DRUM BANJO FAN picture