Your One-Stop Source For
Music Lyrics
Bass and Guitar Tabs
and More...
Music Lyrics Bass and Guitar Tabs

 

The Tabs Are Below

Learn To Read Tab
Chords Handbook
Corrections & Additions
Get Official Tab
311 tabs @ 911Tabs

I just bought this album an hour and a half ago. I got home an hour ago. Fleshed this

out in about 10 minutes. I'm not bragging, I'm just SOOO stunned because it usually

takes me awhile to get a song done. But... I guess it's getting ok now.

 

311

Don't Tread On Me

Song: It's Getting OK Now

Music: Mr. Mahoney himself

Lyrics: none other than the Space Alien

 

Intro: dist., kinda muffled for one measure, then kicks into 2 measures that aren't muffled.

e:----------------------------------------------------------|

B:----------------------------------------------------------|

G:----------------------------------------------------------|

D:----------------------------------------------------------| (3 times)

A:---------------7-7-7-7-7--------------------7-7-7-7-7-----|

E:--5---5-8-5-8//----------8//---5---5-8-5-8//----------8//-|

 

Verse: dist.

e:---------------------------------------------------------|

B:---------------------------------------------------------|

G:---------------------------------------------------------|

D:-----7-7-7---0h5-5-5-5-----------7-7-7---0h5-5-5-5-------| (5 times)

A:-----------------------5-5-4-----------------------5-5-4-|

E:--5---------------------------5--------------------------|

 

Chorus: dist. *notes in parenthesis() don't have to be played

e:-------------------------------------------------------|

B:-------------------------------------------------------|

G:---9---11----7---9---------------------4---------------|

D:---9---11----7---9---7---------4--4h5h7--7-5-----------|

A:---7---9-----5---7---5----4h5h7------------------------|

E:--(7)-(9)---(5)-(7)--5---------------------------------|

 

Chorus ends on:

e:-----

B:-----

G:-----

D:--7--

A:--5--

E:--5--

 

Bridge/Breakdown: dist.

e:-----------------------------------------------------------|

B:-----------------------------------------------------------|

G:-----------------------------------------------------------|

D:-----------------------------------------------------------|

A:-5/7------------------------2--5/7----------------------2--|

E:-----5--2-0-2-3-2-0-3-2-3-2-0------5--2-0-3-0-2-0-2-3-2-0--|

 

That's the whole song. Parts repeat and such but you'll hear it, so

good luck with this one. I had a lot of fun with it. And I still am

having fun with it, it's awesome. Cheers!

 

Click here to return to my 311 tabs page

The Tablature is Copyright its respective owners.

Sign Up For My Newsletter
Subscribe | Unsubscribe

Site Map | Disclaimer | Privacy Policy | Media Kit | Submissions/Corrections

Website © 2000-2014 mattsmusicpage.com. All rights reserved.

Legal & DMCA: Matt's Music Page has been providing lyrics and tabs in a legal way, paying royalties each year to a few organizations. Then, all lyrics and tabs were removed from the site. Now, there's a new owner to the site, which purchased it August 26, 2014, and he is in negotiation to obtain licensing from BMI at the moment. If you have a specific DMCA request -- please do not hesitate to contact me via the contact button on top. I will do my very best to keep this site fully legal.

Get our toolbar!