Your One-Stop Source For
Music Lyrics
Bass and Guitar Tabs
and More...
Music Lyrics Bass and Guitar Tabs

 

The Tabs Are Below

Learn To Read Tab
Chords Handbook
Corrections & Additions
Get Official Tab
311 tabs @ 911Tabs

Intro:

 

e-9-h11-11-11-9-7-7-------

b-------------------9-7---

g-------------------------

d-------------------------

a-------------------------

e-------------------------

 

e-9-h11-11-11-9-7-7-9-11-7-----

b------------------------------

g------------------------------

d------------------------------ x2

a------------------------------

e------------------------------

 

e-9-7-9-9-11-12-11~14-12-12-11-12------------

b--------------------------------------------

g--------------------------------14--14-12---

d--------------------------------------------

a--------------------------------------------

e--------------------------------------------

 

after above played twice:

 

e-9-h11-11-11-9-7-7-------

b-------------------9-7---

g-------------------------

d-------------------------

a-------------------------

e-------------------------

 

Verse:

 

e-7-7-----------

b-7-7---9--9-9--

g-------9--9-9--

d---------------

a---------------

e---------------

 

Chorus:

 

e----7-9-11-9--------7-9-11-9-7-7---11-

b-7-9----------7-9-9--------------------

g---------------------------------------

d---------------------------------------

a---------------------------------------

e---------------------------------------

 

Don't have the bridge yet, but I'll work on it. 100% correct.

 

 

Click here to return to my 311 tabs page

The Tablature is Copyright its respective owners.

Sign Up For My Newsletter
Subscribe | Unsubscribe

Site Map | Disclaimer | Privacy Policy | Media Kit | Submissions/Corrections

Website © 2000-2014 mattsmusicpage.com. All rights reserved.

Legal & DMCA: Matt's Music Page has been providing lyrics and tabs in a legal way, paying royalties each year to a few organizations. Then, all lyrics and tabs were removed from the site. Now, there's a new owner to the site, which purchased it August 26, 2014, and he is in negotiation to obtain licensing from BMI at the moment. If you have a specific DMCA request -- please do not hesitate to contact me via the contact button on top. I will do my very best to keep this site fully legal.

Get our toolbar!