Your One-Stop Source For
Music Lyrics
Bass and Guitar Tabs
and More...
Music Lyrics Bass and Guitar Tabs

 

The Tabs Are Below

Learn To Read Tab
Chords Handbook
Corrections & Additions
Get Official Tab
311 tabs @ 911Tabs

Song:You get worked

 

Artist:311

 

Album:From Chaos

 

Tabber:T4-TURBO

 

Tunning:G,D,A,E,B

 

Intro:

g:-------|

d:-------|

a:-------|

e:5-3----|

b:----5-4|

 

Riff 1:

g:---------------------------|

d:---------------------------|

a:---------------------------|

e:5-3-5--5-3-5-3-5(0-1-0-1-0)|4th time

b:---------------------------|

 

Riff 2:

g:------------------------------------------|

d:------------------------------------------|

a:------------------------------------------|

e:------------------------------------------|

b:5-5-5-5--5-5-5-5-5-5-5-5-5-5-5-5-5-5-5-5-5|

 

Riff 3:

g:-------------------|

d:------------(4-4-4)|4th time

a:-------3-4-6-------|

e:5-4--4-------4-4-4-|

b:-------------------|

 

Bridge:something like:

g:---------------------------|

d:---------------------------|

a:7---7---7---7---7---7---7--|

e:--0---0---0---0---0---0---0|

b:---------------------------|

 

 

 

Click here to return to my 311 bass tabs page

The Tablature is Copyright its respective owners.

Sign Up For My Newsletter
Subscribe | Unsubscribe

Site Map | Disclaimer | Privacy Policy | Media Kit | Submissions/Corrections

Website © 2000-2014 mattsmusicpage.com. All rights reserved.

Legal & DMCA: Matt's Music Page has been providing lyrics and tabs in a legal way, paying royalties each year to a few organizations. Then, all lyrics and tabs were removed from the site. Now, there's a new owner to the site, which purchased it August 26, 2014, and he is in negotiation to obtain licensing from BMI at the moment. If you have a specific DMCA request -- please do not hesitate to contact me via the contact button on top. I will do my very best to keep this site fully legal.

Get our toolbar!