Your One-Stop Source For
Music Lyrics
Bass and Guitar Tabs
and More...
Music Lyrics Bass and Guitar Tabs

 

The Tabs Are Below

Learn To Read Tab
Chords Handbook
Corrections & Additions
Get Official Tab
311 tabs @ 911Tabs

 

311

Who's Got the Herb?

 

intro

1:-----------------------------

2:--9--9--9-9-9--7-------------

3:-----------------10----------

4:-----------------------------

5:-----------------------------

 

main riff -- variation ( these are the main notes he uses,also listen

for the octaves and the rythymn)

 

1:--------------

2:--------------

3:----7-7--5-5--

4:--------------

5:--------------

 

 

variation

 

1:-9----7-------

2:--9----7------

3:---7----5-----

4:--------------

5:--------------

 

2nd part of the song

 

"Who's got the herb"

 

riff 1

1:------------------------------------------------------

2:------------------------------------------------------

3:------------------------------------------------------

4:-0-2-3-0-2-3--0-2-3-3--3-0-2-3-0-2-3------------------

5:-------------------------------------1-1-0-0----------

 

riff 2

1:--------------------------------------------------

2:--------------------------------------------------

3:--------------------------------------------------

4:-5--0-0-0-0--3--0-0-0-0--5--0-0-0-0--3--0-0--5-4-3

5:--------------------------------------------------

 

outro

1:---------------------

2:---------------------

3:---------------------

4:---------------------

5:-1-1-1-1-1-1-1-1-1-1-

 

Jason A Borgmann

 

 

Click here to return to my 311 bass tabs page

The Tablature is Copyright its respective owners.

Sign Up For My Newsletter
Subscribe | Unsubscribe

Site Map | Disclaimer | Privacy Policy | Media Kit | Submissions/Corrections

Website © 2000-2014 mattsmusicpage.com. All rights reserved.

Legal & DMCA: Matt's Music Page has been providing lyrics and tabs in a legal way, paying royalties each year to a few organizations. Then, all lyrics and tabs were removed from the site. Now, there's a new owner to the site, which purchased it August 26, 2014, and he is in negotiation to obtain licensing from BMI at the moment. If you have a specific DMCA request -- please do not hesitate to contact me via the contact button on top. I will do my very best to keep this site fully legal.

Get our toolbar!