Your One-Stop Source For
Music Lyrics
Bass and Guitar Tabs
and More...
Music Lyrics Bass and Guitar Tabs

 

The Tabs Are Below

Learn To Read Tab
Chords Handbook
Corrections & Additions
Get Official Tab
311 tabs @ 911Tabs

Song:Wake Your Mind Up

 

Artist:311

 

Album:From Chaos

 

Tabber:T4-TURBO

 

 

 

Riff 1:

g:-----------------|

d:-----------------|

a:-----------------|

e:--4---------4----|

b:2---2-2---2---2-2|

 

 

Riff 2:

g:---------------------------------------|

d:---------------------------------------|

a:---------------------------------------|

e:---------4-4---4--7-7-7-5---5-5-5-5-5-5|

b:2-22-222-------------------------------|

 

 

Riff 3:

|-s-s-s-s-s--s-s-s--s-------s---s--p-s-s-s-s|

g:---------------------------------2--------|

d:------4-----------------------------------|

a:--x-4---4---------2h3p20--2---0----2-0-3-2|

e:2----------2-5-2--------------------------|

 

 

Riff 4:

|-s-p-s-s--s-----s-s-s---s-s-s-s-s-s-s-s--|

g:----------------------------------------|

d:--4----------------------------------0h2|

a:---------2h3p2-0-2-0---2-0-2-3-2-0-2----|

e:2---4-5---------------------------------|

b:----------------------------------------|

 

 

Riff 5:

g:-------------------------4-4-4|

d:--------2-2-2---2-2-2----2-2-2|

a:----------------2-2-2----2-2-2|

e:0-0-0---0-0-0---0-0-0----0-0-0|

b:------------------------------|

 

 

Riff 6:

g:--------------------------------------------------|

d:2h3-2-0-2------------------2h3-2-0-2--------------|

a:----------3-2---2--------------------3-3-3---2----|

e:--------------3---3--2-0-------------------3---3-2|

b:--------------------------------------------------|

 

 

Click here to return to my 311 bass tabs page

The Tablature is Copyright its respective owners.

Sign Up For My Newsletter
Subscribe | Unsubscribe

Site Map | Disclaimer | Privacy Policy | Media Kit | Submissions/Corrections

Website © 2000-2014 mattsmusicpage.com. All rights reserved.

Legal & DMCA: Matt's Music Page has been providing lyrics and tabs in a legal way, paying royalties each year to a few organizations. Then, all lyrics and tabs were removed from the site. Now, there's a new owner to the site, which purchased it August 26, 2014, and he is in negotiation to obtain licensing from BMI at the moment. If you have a specific DMCA request -- please do not hesitate to contact me via the contact button on top. I will do my very best to keep this site fully legal.

Get our toolbar!

 

Starbucks You Are Here Coffee Mug/Cup KENTUCKY - Horses, Banjo, Blue, White
$19.99
Starbucks You Are Here Coffee Mug/Cup KENTUCKY - Horses, Banjo, Blue, White picture


KNOWLES ROCKWELL HERITAGE "THE BANJO PLAYER" FIRST EDITION 1989 PLATE COA
$5.99
KNOWLES ROCKWELL HERITAGE


Vintage Postcard 1981 Disney World Banjo Kings Main Street USA 1981 Postmark
$4.99
 Vintage Postcard 1981 Disney World Banjo Kings Main Street USA 1981 Postmark picture


Banjo Barometer With Thermometer Hygrometer 490mm
$84.76
Banjo Barometer With Thermometer Hygrometer 490mm picture


ANTIQUE JAPANESE NIPPON FIGURINE SET OF 3 WOMEN GEISHA PLAYING DRUM BANJO FAN
$24.0
ANTIQUE JAPANESE NIPPON FIGURINE SET OF 3 WOMEN GEISHA PLAYING DRUM BANJO FAN picture