Your One-Stop Source For
Music Lyrics
Bass and Guitar Tabs
and More...
>Music Lyrics Bass and Guitar Tabs

 

The Tabs Are Below

Learn To Read Tab
Chords Handbook
Corrections & Additions
Get Official Tab
311 tabs @ 911Tabs

Song:Lose

 

Artist:311

 

Album:Grass-Roots

 

Tabber:T4-TURBO

 

Comments:Yes,yes i know your probly thinking this tab is about 8 years

late but thats allright its finnaly here kuz i finnaly had the time

to sit down & figurre it out.

 

Riff 1:

g:----------------------------------------|

d:----------------------------------------|

a:5--0-3h5-5--0-7h8-7h8---8-8-8-----8-88-8|

e:----------------------6-------6---------|

 

Fill:

g:---------|

d:--888----|

a:8-----8-8|

e:---------|

 

Riff 2:

g:------------------8---------------------------------------------------------7------|

d:-----5-5-5-8--8-8---8-5----4-4-0-4-6-6h8-6-4------------------------------7---7----|

a:6--6--------------------6--------------------6-6-6-5--0-3h5-5-0-7h8-7h8-5-------5-7|

e:-----------------------------------------------------------------------------------|

 

Riff 3:

g:----5-5----------5-5-------------------------------------|

d:333------3---333------3----------------------------------|

a:------------------------------5-5-----5-5-----555-----555|

e:-----------1------------1-333-----333-----333-----333----|

 

Riff 4:

g:-----------------------------------------------------------|

d:-----------------------------------------------------------|

a:0--0--0-0--0-0-1--1--1-1--1--1-0--0--0-0--0--0--1--1--1-1-0|

e:-----------------------------------------------------------|

 

Bridge:

g:------------------------------------------------------|

d:------------------------------------------------------|

a:--3-5----3-5--1-1---1-1---------3-5---3-5--1-1---1---1|

e:5------5----1-----1-----------5-----5----1-----1---1--|

 

Fill:

g:----------------------------------------------7--------|

d:1---------6h8-6-4---------------------------7---7------|

a:------------------6--5-0-3h5-5--0-7h8-7h8-5-------5-7--|

e:-----2------------------------------------------------5|

 

End:

g:---------------|

d:---------------|

a:0--------------|

e:---------------|

b:--------3------|

 

Thats it the song doesn't have as many riffs as it sounds its just

timming that he does them in.so play around with it till u get it

right kuz its not that hard of a song to play it was kinda

hard to figure out...so enjoy!!!

 

 

Click here to return to my 311 bass tabs page

The Tablature is Copyright its respective owners.

Sign Up For My Newsletter
Subscribe | Unsubscribe

Site Map | Disclaimer | Privacy Policy | Media Kit | Submissions/Corrections

Website © 2000-2014 mattsmusicpage.com. All rights reserved.

Legal & DMCA: Matt's Music Page has been providing lyrics and tabs in a legal way, paying royalties each year to a few organizations. Then, all lyrics and tabs were removed from the site. Now, there's a new owner to the site, which purchased it August 26, 2014, and he is in negotiation to obtain licensing from BMI at the moment. If you have a specific DMCA request -- please do not hesitate to contact me via the contact button on top. I will do my very best to keep this site fully legal.

Get our toolbar!

 

OLD LARGE HISTORIC PHOTO OF THE ROLLING STONES, MICK JAGGER etc c1962
$5.0
OLD LARGE HISTORIC PHOTO OF THE ROLLING STONES, MICK JAGGER etc c1962 picture


ROLLING STONES ROCK N ROLL REVOLUTIONARY COMIC 4TH PRINT, VOL 1, #6, 1989
$9.99
ROLLING STONES ROCK N ROLL REVOLUTIONARY COMIC 4TH PRINT, VOL 1, #6, 1989 picture


Beatles vs. the Rolling Stones (1992) #1B VF 8.0
$12.5
Beatles vs. the Rolling Stones (1992) #1B VF 8.0 picture


Zippo 11549 Rolling Stones Satin Chrome Lighter 2.25 x 1.4375
$17.72
Zippo 11549 Rolling Stones Satin Chrome Lighter 2.25 x 1.4375 picture


SAN JUAN BRIAN JONES *ROLLING STONES BLUE TEARDROP GUITAR Hard Rock Cafe PINS
$12.99
SAN JUAN BRIAN JONES *ROLLING STONES BLUE TEARDROP GUITAR Hard Rock Cafe PINS picture