Your One-Stop Source For
Music Lyrics
Bass and Guitar Tabs
and More...
Music Lyrics Bass and Guitar Tabs

 

The Tabs Are Below

Learn To Read Tab
Chords Handbook
Corrections & Additions
Get Official Tab
311 tabs @ 911Tabs

Song:Full Ride

 

Artist:311

 

Tabber:T4-TURBO

 

 

 

Riff 1:

g:-----------------------------------------------------|

d:-----------------------------------------------------|

a:--8-6-4-------8-6-4-------8-6-4---8-6-4---8-6-4------|

e:7-------3---7-------3---7-------5-------5-------1---1|

b:-----------------------------------------------------|

 

 

Riff 2:

g:----------------------------------------------|

d:----------------------------(2-2)-------------|When Sa Starts singing,3rd time

a:----------------------------------------------|

e:2--0-0-----2--0-0-----2--0-0-----2--0---0--0-0|

b:----------------------------------------------|

 

 

Riff 3:

g:-------------------------------------|

d:-------------------------------------|

a:2-1-2-----------2--2-1-2-------------|

e:-----------2-------------------------|

b:-------2-4---------------2-4-0--0-2-0|

 

 

Riff 4:

g:--------------------------------------------|

d:----------------2---------2-------------2---|

a:--------------------------------------------|

e:2--0-0--0-0--0-----0--0-0----0--0-0--0-----0|

b:

 

Fill :

g:-----------------------|

d:-----------------------|

a:6-6---6-6---6-6--------|

e:----5-----4-----3--1---|

b:-----------------------|

 

 

Riff 5:

g:-----------------------|

d:-----------------------|

a:---------4----------2-4|

e:5--3-5-5----5-3-5-5----|

b:-----------------------|

 

Click here to return to my 311 bass tabs page

The Tablature is Copyright its respective owners.

Sign Up For My Newsletter
Subscribe | Unsubscribe

Site Map | Disclaimer | Privacy Policy | Media Kit | Submissions/Corrections

Website © 2000-2014 mattsmusicpage.com. All rights reserved.

Legal & DMCA: Matt's Music Page has been providing lyrics and tabs in a legal way, paying royalties each year to a few organizations. Then, all lyrics and tabs were removed from the site. Now, there's a new owner to the site, which purchased it August 26, 2014, and he is in negotiation to obtain licensing from BMI at the moment. If you have a specific DMCA request -- please do not hesitate to contact me via the contact button on top. I will do my very best to keep this site fully legal.

Get our toolbar!

 

Hard Rock Pin Las Vegas 4th of july red white and blue guitar
$5.0
Hard Rock Pin Las Vegas 4th of july red white and blue guitar picture


Hard Rock Pin Hollywood Fl Bell Girl with dice luggage and guitar
$5.0
Hard Rock Pin Hollywood Fl Bell Girl with dice luggage and guitar picture


Hard Rock Pin Las Vegas King of Clubs Guitar rare only 3 lines of info on back
$5.0
Hard Rock Pin Las Vegas King of Clubs Guitar rare only 3 lines of info on back picture


Hard Rock Pin Edmonton guitar pin
$5.0
Hard Rock Pin Edmonton guitar pin picture


Lladro Guitar Boy #4614 - Beautiful Piece of Lladro
$109.0
Lladro Guitar Boy #4614 - Beautiful Piece of Lladro picture