Your One-Stop Source For
Music Lyrics
Bass and Guitar Tabs
and More...
Music Lyrics Bass and Guitar Tabs

 

The Tabs Are Below

Learn To Read Tab
Chords Handbook
Corrections & Additions
Get Official Tab
311 tabs @ 911Tabs

Title: Don't Dwell

Artist: 311

Album: Evolver

 

Instrument: 5 String Bass

 

Tabbed by: chris.funkhouser@houstonchristianhs.org

 

Send me an e-mail for corrections because i suck!

 

 

Some of the bass parts are kind of hard to hear because their buried under the guitar

 

 

 

Slap intro:

 

G|---------4----------4---------2--2---------||

D|------------5----------5-------------------||

A|-------------------------------------------||

E|---0h3-x---------x----------x--------------||

B|-------------------------------------------||

 

 

G|---------4----------4---------5--5---------||

D|------------5-----------5------------------||

A|-------------------------------------------||

E|---0h3-x--------x-----------x--------------||

B|-------------------------------------------|| x2

 

Verse:

 

G|---------4----------4---------2--2---------||

D|------------5----------5-------------------||

A|-------------------------------------------||

E|---0h3-x--------x----------x---------------||

B|-------------------------------------------||

 

 

G|---------4----------4---------5--5---------||

D|------------5-----------5------------------||

A|-------------------------------------------||

E|---0h3-x--------x-----------x--------------||

B|-------------------------------------------|| x 4

 

Chorus intro- this part is slapped and pretty hard for me to hear:

 

G|------------------------------------------||

D|-------7-7--------7-----(7)---------------||

A|------------------------------------------||

E|--0h5--------0h5-----(5)------------------||

B|------------------------------------------|| x 2

 

() = don't play last time

 

Told me Don't dwell part:

 

G|------------------------------||

D|------------------------------||

A|-------2----3-----------3---3-||

E|----5---------------3-3---3---||

B|------------------------------||

 

 

G|---7-----7-------------||

D|-----------------------||

A|------5-----5----5--5--||

E|-----------------------||

B|-----------------------||

 

Other verse riff (not sure bout this):

 

G|---------------------------------------||

D|---------------------------------------||

A|------------------2-----------2--------||

E|--0-----0--3-5-3------5---3------5--3--||

B|-----0---------------------------------||

 

 

G|-------------8---------------------8--------||

D|-----5---8------8--5-------5--8-------8--5--||

A|--6---------------------6-------------------||

E|--------------------------------------------||

B|--------------------------------------------||

 

Last part:

 

G|-------------------------------9/7---------------------------------||

D|-------------------------------------------------------------------||

A|-------------------------------------------------------------------||

E|---3--3----5--5----7--7----8---------------------------------------||

B|-------------------------------------------------------------------||

 

 

Ending - too lazy to tab this part out note for note, play this w/ variation :

 

G|---------4-5-4----4-5-4---------------------------||

D|-------5--------5---------------------------------||

A|-----------------------------2-3-2----2-3-2-------||

E|---------------------------3--------3----------3--||

B|--------------------------------------------------||

 

 

 

Click here to return to my 311 bass tabs page

The Tablature is Copyright its respective owners.

Sign Up For My Newsletter
Subscribe | Unsubscribe

Site Map | Disclaimer | Privacy Policy | Media Kit | Submissions/Corrections

Website © 2000-2014 mattsmusicpage.com. All rights reserved.

Legal & DMCA: Matt's Music Page has been providing lyrics and tabs in a legal way, paying royalties each year to a few organizations. Then, all lyrics and tabs were removed from the site. Now, there's a new owner to the site, which purchased it August 26, 2014, and he is in negotiation to obtain licensing from BMI at the moment. If you have a specific DMCA request -- please do not hesitate to contact me via the contact button on top. I will do my very best to keep this site fully legal.

Get our toolbar!