Your One-Stop Source For
Music Lyrics
Bass and Guitar Tabs
and More...
Music Lyrics Bass and Guitar Tabs

 

The Tabs Are Below

Learn To Read Tab
Chords Handbook
Corrections & Additions
Get Official Tab
311 tabs @ 911Tabs

Band: 311

Song: Creatures (For A While)

Producer: Saint and 311

Mixed: Saint

 

This is the album version…all this means is that there is one extra repeat of the intro riff.

Here it is to all those 311 fans that are dying for these tabs….

 

P= pull off

(#)= Harmonics

 

 

Intro/Chorus:

 

G: -----------------------------------------------------------------------

D: -----------------------------------------------------------------------

A: ----------------------------------------------------------------------- x 2

E: -----------------------------------------------------------------------

B: --4p2-2-2-0-0-0-0--4p2-2-2-0-0-0-0—4p2-2-2-0-0-0-0—4p2-2-2-2-0-0-0-----

 

G: ------------------

D: ------------------

A: ------------------

E: -----2------1-----

B: --0----0-0--------

 

Or

 

G: ----------------------------------------------------------------------

D: ---------------------------------------------------------------------- x 2

A: --6p4-4-4-2-2-2-2—6p4-4-4-2-2-2-2--6p4-4-4-2-2-2-2--6p4-4-4-4-2-2-2---

E: ----------------------------------------------------------------------

 

G: ---------------

D: ---------------

A: --2-2-2-2------

E: -------------1—

 

Verse:

 

G: -------5-5----------------I G: ------5--------------

D: --3----------3-3----------I Then D: --3-----3-------------

A: --------------------2-3---I x 3 A: -------------3-3-2-3-

E: --------------------------I E: -------------------

B: --------------------------I B: -------------------

 

Nick’s part:

 

G:--------------------------------------------------------------------------I

D:-----------------------------------4-------------------4-----------4------I

A:-------------------------4-------------------4---------------4------------I

E:-2-2-2-2-2-2-2-2--2-2-2-----2-2-2-----2-2-2----2-2-2------2-----2-----2-2-I

B:--------------------------------------------------------------------------I

 

SA’s part:

 

G: --------------------------I

D: --------------------------I

A: --------------------------I x 4

E: --1---1----3-----4---1----I

B: --------------------------I

 

Repeat Nick’s part with some variation.

 

Pre-chorus:

Then

G: -----------------------------I G: ---------------------------------I

D: -----------------------------I D: ---------------------------------I

A: ------------------------4----I x 4 A: ---------------------------------I

E: --4—2—4—2—4------------------I E: --5--(5)--5--(5)--5--(5)---5-(5)-I

B: -----------------------------I B: ---------------------------------I

 

Repeat Intro/Chorus

 

Repeat Verse

 

Repeat Nick’s part with some variation

 

Repeat SA’s part

 

Repeat Nick’s part with some variation

 

Repeat Pre-chorus

 

Bridge:

then

G: -------------------------- G: -------I G:-------I

D: -------------------------- D: -------I D:-------I

A: -------------------------- A: -------I or A:----2--I

E: --5-(5)-5-(5)-5-(5)-5-(5)- E: -5-----I E:-5-----I

B: -------------------------- B: ----0--I B:-------I

 

Repeat Intro/Chorus

 

Well that’s all folks. It’s not that hard. You have to listen to some timing

parts but you’ll get the hang of it. This is a great song to have fun with. Any

corrections e-mail me at distortedlb212@yahoo.com.

"Stay Positive and love your life."

 

Peace out,

Tony :-P

 

 

Click here to return to my 311 bass tabs page

The Tablature is Copyright its respective owners.

Sign Up For My Newsletter
Subscribe | Unsubscribe

Site Map | Disclaimer | Privacy Policy | Media Kit | Submissions/Corrections

Website © 2000-2014 mattsmusicpage.com. All rights reserved.

Legal & DMCA: Matt's Music Page has been providing lyrics and tabs in a legal way, paying royalties each year to a few organizations. Then, all lyrics and tabs were removed from the site. Now, there's a new owner to the site, which purchased it August 26, 2014, and he is in negotiation to obtain licensing from BMI at the moment. If you have a specific DMCA request -- please do not hesitate to contact me via the contact button on top. I will do my very best to keep this site fully legal.

Get our toolbar!