Your One-Stop Source For
Music Lyrics
Bass and Guitar Tabs
and More...
Music Lyrics Bass and Guitar Tabs

 

The Tabs Are Below

Learn To Read Tab
Chords Handbook
Corrections & Additions
Get Official Tab
311 tabs @ 911Tabs

Title: Crack the Code

Artist: 311

Album: Evolver

 

Instrument: 5 String Bass

 

Tabbed by: chris.funkhouser@houstonchristianhs.org

 

E-mail me with corrections!

 

Tuning: Standard (B E A D G)

 

 

Intro/Verse:

 

G|----------4---4---------------4---4---------------4---4------------||

D|-----x-5--------5--------x-3--------5--------x-3--------5----------||

A|-------------------------------------------------------------------||

E|--3-------------------1-------------------1------------------------||

B|-------------------------------------------------------------------||

 

G|---------------------------||

D|---------------------------||

A|---------7----------9------||

E|---5--8------7--10---------||

B|---------------------------||

 

Verse:

 

G|----------------------------------------------------------------||

D|-------3--------------------5-----------------------------------||

A|----3------3---3---------5------5---5---------------------------||

E|-1-----------1--------3-----------3-----------------------------||

B|----------------------------------------------------------------||

 

 

Transition to SA rap part:

 

G|------------------------------------------------------||

D|------------------------------------------------------||

A|---------3--------3----------2///7-7-7----------------||

E|--1--1------1--1-------0--0---------------------------||

B|------------------------------------------------------||

 

SA rap part:

 

G|---------------------------------||

D|---------------------------------||

A|----------(2h3)------------------||

E|-5-5-5-5-------------------------||

B|---------------------------------|| x6

 

()- every 4th time

 

G|----------------------||

D|----------------------||

A|----------------------||

E|-0-0-0-0-0-0-0-0-0----||

B|----------------------||

 

Chorus:

 

G|-----------------------------||

D|-----------------------------||

A|-----------------------------||

E|----------------1--1---1--1--||

B|--3--3---3--3----------------||

 

 

Chorus- after playing the chorus riff once, P-nut

throws in a little slap for a measure:

 

T P T T P T

G|-------------------------------||

D|-----------------3-------3-----||

A|-------------------------------||

E|---------------1---1---1---1---||

B|-3--3---3--3-------------------||

 

 

Transistion back to verse:

 

 

G|---------------------------------||

D|---------------------------------||

A|---------------------------------||

E|--0-----0--3--5----7-------------||

B|-----3---------------------------||

 

 

Ending:

 

G|---------------------------------||

D|---------------------------------||

A|---------------------------------||

E|--0-----0--3--5----7-----3-------||

B|-----3---------------------------||

 

 

 

Click here to return to my 311 bass tabs page

The Tablature is Copyright its respective owners.

Sign Up For My Newsletter
Subscribe | Unsubscribe

Site Map | Disclaimer | Privacy Policy | Media Kit | Submissions/Corrections

Website © 2000-2014 mattsmusicpage.com. All rights reserved.

Legal & DMCA: Matt's Music Page has been providing lyrics and tabs in a legal way, paying royalties each year to a few organizations. Then, all lyrics and tabs were removed from the site. Now, there's a new owner to the site, which purchased it August 26, 2014, and he is in negotiation to obtain licensing from BMI at the moment. If you have a specific DMCA request -- please do not hesitate to contact me via the contact button on top. I will do my very best to keep this site fully legal.

Get our toolbar!