Your One-Stop Source For
Music Lyrics
Bass and Guitar Tabs
and More...
Music Lyrics Bass and Guitar Tabs

 

The Tabs Are Below

Learn To Read Tab
Chords Handbook
Corrections & Additions
Get Official Tab
311 tabs @ 911Tabs

Song:Champagne

 

Artist:311

 

Tabber:T4TURBO

 

Album:From Chaos

 

Tunning:A,E,A,D,G,

 

Comments:No one was willing to tab-out this song on this site and its

not really that hard to figure-out so here's my tab for Champagne.

 

Main riff:

g:----------------------------------------------|

d:----------------------------------------------|

a:------------4-0-------------------------2-4444|

e:5---5-3-5-3-----3---3-2-3-5-2-3-5-2---3-------|

a:----------------------------------------------|

 

Riff2:

g:---------------------------------|

d:---------------------------------|

a:---------------------------2-4444|

e:1//5-3--0-5--0-5-0-1-5-3-5-------|

a:---------------------------------|

 

Riff3:

g:------------------|

d:------------------|

a:--------4-----4444|

e:5---3---2---3-----|

a:------------------|

 

Ending:

g:---------|

d:---------|

a:5-4------|

e:------5-5|

a:----2---0|

 

 

Click here to return to my 311 bass tabs page

The Tablature is Copyright its respective owners.

Sign Up For My Newsletter
Subscribe | Unsubscribe

Site Map | Disclaimer | Privacy Policy | Media Kit | Submissions/Corrections

Website © 2000-2014 mattsmusicpage.com. All rights reserved.

Legal & DMCA: Matt's Music Page has been providing lyrics and tabs in a legal way, paying royalties each year to a few organizations. Then, all lyrics and tabs were removed from the site. Now, there's a new owner to the site, which purchased it August 26, 2014, and he is in negotiation to obtain licensing from BMI at the moment. If you have a specific DMCA request -- please do not hesitate to contact me via the contact button on top. I will do my very best to keep this site fully legal.

Get our toolbar!