Your One-Stop Source For
Music Lyrics
Bass and Guitar Tabs
and More...
Music Lyrics Bass and Guitar Tabs

 

The Tabs Are Below

Learn To Read Tab
Chords Handbook
Corrections & Additions
Get Official Tab
311 tabs @ 911Tabs

Song:Cali Soca

 

Artist:311

 

Tabber:T4-TURBO

 

 

Iv'e wanted to learn this song for so long but all i had was the live

version and the bass has a really bad sound on the one i got so

i was glad when they released the studio one for people to download

& here it is Cali Soca

 

 

Drum Intro

 

*=let ring

s=slap

p=pop

 

Riff 1:

g:------------------------9-9--------------------------9-9--------------------------9-9---------|

d:-------------10------10-------------------10------10-------------------10------10-------------|

a:10-10-10--12----12----------10-10-12---12----12----------10-10-10---12----12----------10-10-10|

e:----------------------------------------------------------------------------------------------|

b:----------------------------------------------------------------------------------------------|

 

 

Fill:

g:---9|

d:10*-|

a:----|

e:----|

b:----|

 

 

Riff 2:

g:---------------7---------------------------7-----------------------7--------------------------7---|

d:-------------8---10-10-7-----------------8----10-9---------------8---10-10-7----------------8---10|

a:8-8-8---7-10-------------8--8-8-8---7-10-----------8-8-8-8--7-10-------------8--8-8-8--7-10-------|

e:--------------------------------------------------------------------------------------------------|

b:--------------------------------------------------------------------------------------------------|

 

 

Riff 3:

g:----------------------------|

d:----------------------------|

a:--1---3h5-3-----0---3h5-3-5-|

e:3---3-------5-1---1(3-1-3--)|3rd time

b:----------------------------|

 

 

Riff 3-2nd time through the song

g:-------------------------------------------------------------------------|

d:-------------------------------------------------------------------------|

a:--11-1---3h5-3-----00-0---3h5-3-5---11-1---3h5-3-----00-0---3h5-3h5-3-0-0|

e:3------3-------5-1------1---------3------3-------5-1------1--------------|

b:-------------------------------------------------------------------------|

 

Fill:

g:--------|

d:--------|

a:--------|

e:11-1-1-1|

b:--------|

 

Bass Solo:

|-s-p-p-p-p----s---p-s--s--p-p-p-----s-s------s-s-------sp--s-s-s-p-s-s-s-p-s-|

g:-----------------------------------------------------(---------------------)|

d:--x-5-3-2h3p2----3-------x-3-2h3p2-------------------(-3--------3-------3--)|

a:-------------0h3---3---------------0-0-h1h3-0-0-h1/5-(---------------------)|

e:3---------------------1------------------------------(x---1-1-x---1-1-x---1)|4th time

b:-----------------------------------------------------(---------------------)|

 

 

Fill:

g:--------|

d:--------|

a:--------|

e:11-1-1-1|

b:--------|

 

 

End:

|-s--p-s-s-s-s-s-s-s-s-s---------------------------------------------------------------------------------------------------------------------------------------------------|

g:-------------------------------------------------------------------------------------------------------------------------------------------------------------------------|

d:---5---------3-2-----------------------------0-3-2-0----5-3-2-0-2-0----------------------------5-3--2-3-2-0-2-0--------------------------0-3-2-0---5-3-2-0-2-0-----------|

a:-------2-3-5-----5-3-0-------------------2-3---------3--------------3---------------------2---------------------3-------------------2-3----------3-------------3---------|

e:3----3-----------------11-1-1-1--------3------------------------------11-1-1-1----------3--------------------------11-1-1-1-------3------------------------------11-1-1-1|

b:-------------------------------------------------------------------------------------------------------------------------------------------------------------------------|

 

Click here to return to my 311 bass tabs page

The Tablature is Copyright its respective owners.

Sign Up For My Newsletter
Subscribe | Unsubscribe

Site Map | Disclaimer | Privacy Policy | Media Kit | Submissions/Corrections

Website © 2000-2014 mattsmusicpage.com. All rights reserved.

Legal & DMCA: Matt's Music Page has been providing lyrics and tabs in a legal way, paying royalties each year to a few organizations. Then, all lyrics and tabs were removed from the site. Now, there's a new owner to the site, which purchased it August 26, 2014, and he is in negotiation to obtain licensing from BMI at the moment. If you have a specific DMCA request -- please do not hesitate to contact me via the contact button on top. I will do my very best to keep this site fully legal.

Get our toolbar!