Your One-Stop Source For
Music Lyrics
Bass and Guitar Tabs
and More...
Music Lyrics Bass and Guitar Tabs

 

The Tabs Are Below

Learn To Read Tab
Chords Handbook
Corrections & Additions
Get Official Tab
311 tabs @ 911Tabs

Artist: 311

Song Name: It's Getting OK now

Bassist: P-nutt

 

Standard Tuning E A D G

 

Intro.....

 

silent for 2 measures

play for 4 measures

 

G|----------------------------| G|--------------------|

D|----------------------------| or D|--------------------|

A|-0--0-3-0-3-----------------| A|--------------------|

E|------------00000000--------| E|-5--5-8-5-8-00000000|

 

 

Verse.....

 

Silent for 3 measures

Come in on 4th measure

 

G|----1212-77-5----|

D|--------------7-5|

A|-----------------|

E|-----------------|

 

then play....

 

G|---------------------|

D|---77--00h55-0-------|

A|---------------5554--|

E|-5------------------0|

 

Chorus....

 

play 4 times

 

G|------------------------------------------------|

D|------------------------------------------------|

A|------------------------------------------------|

E|-3x3x3x3x3x3x3x3x2x2x2x2x2x2x2x2x1x1x1x1x1x1x1x1|

 

G|---------------4----|

D|-------4-4h5h7---7-5|

A|-4h5h7--------------|

E|--------------------|

 

then back to intro....

 

play 4 times

 

G|----------------------------| G|--------------------|

D|----------------------------| or D|--------------------|

A|-0--0-3-0-3-----------------| A|--------------------|

E|------------00000000--------| E|-5--5-8-5-8-00000000|

 

back to verse...

 

 

Silent for 3 measures

Come in on 4th measure

 

G|----1212-77-5----|

D|--------------7-5|

A|-----------------|

E|-----------------|

 

then play....

 

G|---------------------|

D|---77--00h55-0-------|

A|---------------5554--|

E|-5------------------0|

 

back to chorus....

 

play 4 times

 

G|------------------------------------------------|

D|------------------------------------------------|

A|------------------------------------------------|

E|-3x3x3x3x3x3x3x3x2x2x2x2x2x2x2x2x1x1x1x1x1x1x1x1|

 

G|---------------4----|

D|-------4-4h5h7---7-5|

A|-4h5h7--------------|

E|--------------------|

 

Bridge........

 

play 4 times...

 

G|-----------------------------------------------------------|

D|-----------------------------------------------------------|

A|-5/7---------------------------5/7-------------------------|

E|-----5--2-0-2-3-2-0-3-2-3-2-0------5--2-0-3-0-2-0-2-3-2-0--|

 

back to chorus.....

 

play 4 times

 

 

G|------------------------------------------------|

D|------------------------------------------------|

A|------------------------------------------------|

E|-3x3x3x3x3x3x3x3x2x2x2x2x2x2x2x2x1x1x1x1x1x1x1x1|

 

G|---------------4----|

D|-------4-4h5h7---7-5|

A|-4h5h7--------------|

E|--------------------|

 

back to intro.....

 

play 4 times

 

G|----------------------------| G|--------------------|

D|----------------------------| or D|--------------------|

A|-0--0-3-0-3-----------------| A|--------------------|

E|------------00000000--------| E|-5--5-8-5-8-00000000|

 

end on A

 

G|---|

D|---|

A|-0-|

E|---|

 

 

Click here to return to my 311 bass tabs page

The Tablature is Copyright its respective owners.

Sign Up For My Newsletter
Subscribe | Unsubscribe

Site Map | Disclaimer | Privacy Policy | Media Kit | Submissions/Corrections

Website © 2000-2014 mattsmusicpage.com. All rights reserved.

Legal & DMCA: Matt's Music Page has been providing lyrics and tabs in a legal way, paying royalties each year to a few organizations. Then, all lyrics and tabs were removed from the site. Now, there's a new owner to the site, which purchased it August 26, 2014, and he is in negotiation to obtain licensing from BMI at the moment. If you have a specific DMCA request -- please do not hesitate to contact me via the contact button on top. I will do my very best to keep this site fully legal.

Get our toolbar!

 

VINTAGE SORRENTO MUSIC JEWELRY BOX
$45.0
VINTAGE SORRENTO MUSIC JEWELRY BOX picture


VINTAGE LACQUERED MUSIC BOX JAPAN
$25.99
VINTAGE LACQUERED MUSIC BOX JAPAN picture


Vintage Kehlsteinhaus Bavaria Germany Colorscope Cow Bell View Master Music Box
$8.99
Vintage Kehlsteinhaus Bavaria Germany Colorscope Cow Bell View Master Music Box picture


VINTAGE SCHMIDT Signed Collectible Musical Turning Clown
$9.99
VINTAGE  SCHMIDT Signed Collectible Musical Turning Clown picture


Vintage - Linen - Postcard - Stage - Radio City Music Hall - New York City
$3.75
Vintage - Linen - Postcard - Stage - Radio City Music Hall - New York City   picture