Your One-Stop Source For
Music Lyrics
Bass and Guitar Tabs
and More...
Music Lyrics Bass and Guitar Tabs

 

The Tabs Are Below

Learn To Read Tab
Chords Handbook
Corrections & Additions
Get Official Tab
311 tabs @ 911Tabs

HOMEBREW

Artist: 311

Album: 311

Drummer: Chad Sexton

Length: 3:05

Time: 4/4

Tabbed by: LincolnIncubus311

 

Notation:

C-crash(s-splash) d-double stroke roll

H-hihat s-single stroke roll

T-mounted tom g-ghost note

T2-mounted tom 2 o-open hihat, note

S-snare O-accented note

F-floor tom f-flam

B-bass drum 3-triplet

 

 

 

Intro:

C |----------------|----------------|

H |----------------|g-g-x-O-O-------|

S |---Repeat 3x----|----------o-ooo-|

B |----------------|----------------|

1 + 2 + 3 + 4 +

Pre-Verse 00:10

C |X---------------|----------------|----------------|----------------|

H |--x-x-xdO---O-x-|x-x-x-xdO---O-x-|x-x-x-xdO---O-x-|x-x-x-xdO---O-x-|

S |----o---------o-|----o---------o-|----o---------o-|----o---------o-|

B |o-o---o-o---o---|o-o---o-o---o---|o-o---o-o---o---|o-o---o-o---o---|

1 + 2 + 3 + 4 + 1 + 2 + 3 + 4 + 1 + 2 + 3 + 4 + 1 + 2 + 3 + 4 +

 

1st Part Verse 00:19

C |X---------------|----------------|----------------|----------------|

H |--x-x-xdO---O-x-|x-x-x-xdO---O-x-|x-x-x-xdO---O-x-|x-x-x-xdO---O-x-|

S |----o---------o-|----o---------o-|----o---------o-|----o---------o-|

B |o-o---o-o---o---|o-o---o-o---o---|o-o---o-o---o---|o-o---o-o---o---|

1 + 2 + 3 + 4 + 1 + 2 + 3 + 4 + 1 + 2 + 3 + 4 + 1 + 2 + 3 + 4 +

 

2nd Part Verse 00:28

C |X---------------|X---------------|X---------------|X---------------|

H |--o-o-o-o-o-o-o-|--o-o-o-o-o-o-o-|--o-o-o-o-o-o-o-|--o-o-o-o-o-----|

T |----------------|----------------|----------------|----------------|

S |----o-------o---|----o----g--o---|----o-------o--g|-g--o--g----OOOO|

F |----------------|----------------|----------------|----------------|

B |o-o--o-oo-oo-o--|o-o--o-oo-oo-o--|o-o--o-oo-oo-o--|o-o--o-oo-o-----|

1 + 2 + 3 + 4 + 1 + 2 + 3 + 4 + 1 + 2 + 3 + 4 + 1 + 2 + 3 + 4 +

 

00:38

C |X---------------|X---------------|X---------------|X---------------|

H |--o-o-o-o-o-o-o-|--o-o-o-o-o-o-o-|--o-o-o-o-o-o-o-|--o-o-o-o-o-----|

T |----------------|----------------|----------------|-------------o--|

S |----o-------o---|----o----g--o---|----o-------o---|----o-----ddO---|

F |----------------|----------------|----------------|--------------oo|

B |o-o--o-oo-oo-o--|o-o--o-oo-oo-o--|o-o--o-oo-oo-o--|o-o--o-oo-o-----|

1 + 2 + 3 + 4 + 1 + 2 + 3 + 4 + 1 + 2 + 3 + 4 + 1 + 2 + 3 + 4 +

 

Pre-Chorus 00:48

C |----------------|----------------|----------------|----------------|

H |--o-x-x-x-x-x-x-|g-o-x-x-x-x-x-x-|g-o-x-x-x-x-x-x-|g-o-x-x-x-x-----|

T |----------------|----------------|----------------|------------3---|

T2|----------------|----------------|----------------|-------------3--|

S |----o---------o-|----o---------o-|----o---------o-|----o----------o|

F |o---------------|----------------|----------------|--------------3-|

B |--o--o-o-oo-o---|--o--o-o-oo-o---|--o--o-o-oo-o---|--o--o-o-oo-----|

1 + 2 + 3 + 4 + 1 + 2 + 3 + 4 + 1 + 2 + 3 + 4 + 1 + 2 + 3 + 4 +

00:57

C |----------------|----------------|----------------|----------------|

H |--o-x-x-x-x-x-x-|g-o-x-x-x-x-----|--o-x-x-x-x-x-x-|x-o-x-x-x-x-x-X-|

T |----------------|----------------|----------------|----------------|

T2|----------------|----------------|----------------|----------------|

S |o---o---------o-|----o-------fo-f|o---o---------o-|----o---------o-|

F |----------------|----------------|----------------|----------------|

B |--o--o-o-oo-o---|--o--o-o-oo-----|--o--o-o-oo-o---|--o--o-o-oo-o---|

1 + 2 + 3 + 4 + 1 + 2 + 3 + 4 + 1 + 2 + 3 + 4 + 1 + 2 + 3 + 4 +

 

Chorus 1:06

C |X---------------|X---------------|X---------------|X---------------|

H |--O-O-O-O-O-O-O-|--O-O-O-O-O-O-O-|--O-O-O-O-O-O-O-|--O-O-O-O-------|

T |----------------|----------------|----------------|-----------s----|

T2|----------------|----------------|----------------|------------s---|

S |----o-------o---|----o--d----o---|----o-------o---|----o-----s-----|

F |----------------|----------------|----------------|-------------sss|

B |oo-o--ooo-oo--oo|o-oo--o-o-----o-|oo-o--ooo-oo--oo|o-oo--o-o-------|

1 + 2 + 3 + 4 + 1 + 2 + 3 + 4 + 1 + 2 + 3 + 4 + 1 + 2 + 3 + 4 +

 

1:16

C |X---X-----x-x-x-|----------------|X---------------|X---------------|

H |----------O-O-O-|O-O-O-O-O-O-O-O-|--O-O-O-O-O-O-O-|--O-O-O-O-------|

T |----------------|----------------|----------------|-------------o--|

T2|----------------|----------------|----------------|--------------o-|

S |------ddO-------|----o-------o---|----o-------o---|----o-----ddO---|

F |----------------|----------------|----------------|---------------o|

B |o---o-----o-o-o-|-oo--o-ooo-o-oo-|oo-o--ooo-oo--oo|o-oo--o-o-------|

1 + 2 + 3 + 4 + 1 + 2 + 3 + 4 + 1 + 2 + 3 + 4 + 1 + 2 + 3 + 4 +

 

1st Part Verse Repeat 1:25

C |s---------------|----------------|----------------|----------------|

H |--x-x-xdO---O-x-|x-x-x-xdO---O-x-|x-x-x-xdO---O-x-|x-x-x-xdO---O-x-|

S |----o---------o-|----o---------o-|----o---------o-|----o---------o-|

B |o-o---o-o---o---|o-o---o-o---o---|o-o---o-o---o---|o-o---o-o---o---|

1 + 2 + 3 + 4 + 1 + 2 + 3 + 4 + 1 + 2 + 3 + 4 + 1 + 2 + 3 + 4 +

 

1:35

C |x---------------|----------------|----------------|----------------|

H |--x-x-xdO---O-x-|x-x-x-xdO---O-x-|x-x-x-xdO---O-x-|x-x-x-xdO---O-x-|

S |----o---------o-|----o---------o-|----o---------o-|----o---------o-|

B |o-o---o-o---o---|o-o---o-o---o---|o-o---o-o---o---|o-o---o-o---o---|

1 + 2 + 3 + 4 + 1 + 2 + 3 + 4 + 1 + 2 + 3 + 4 + 1 + 2 + 3 + 4

 

 

 

 

2nd Part Verse Repeat 1:45

C |X---------------|X---------------|X---------------|X---------------|

H |--o-o-o-o-o-o-o-|--o-o-o-o-o-o-o-|--o-o-o-o-o-o-o-|--o-o-o-o-o-----|

T |----------------|----------------|----------------|----------------|

S |----o-------o---|----o----g--o---|----o-------o--g|-g--o--g-g--OOOO|

F |----------------|----------------|----------------|----------------|

B |o-o--o-oo-oo-o--|o-o--o-oo-oo-o--|o-o--o-oo-oo-o--|o-o--o-oo-o-----|

1 + 2 + 3 + 4 + 1 + 2 + 3 + 4 + 1 + 2 + 3 + 4 + 1 + 2 + 3 + 4 +

 

1:54

C |X---------------|X---------------|X---------------|X---------------|

H |--o-o-o-o-o-o-o-|--o-o-o-o-o-o-o-|--o-o-o-o-o-o-o-|--o-o-o-o-o-----|

T |----------------|----------------|----------------|-------------o--|

S |----o-------o---|----o----g--o---|----o-------o---|----o-----ddO---|

F |----------------|----------------|----------------|--------------oo|

B |o-o--o-oo-oo-o--|o-o--o-oo-oo-o--|o-o--o-oo-oo-o--|o-o--o-oo-o-----|

1 + 2 + 3 + 4 + 1 + 2 + 3 + 4 + 1 + 2 + 3 + 4 + 1 + 2 + 3 + 4 +

 

2nd Pre-Chorus 2:03

C |--x-------------|----------------|----------------|----------------|

H |----x-x-x-x-x-x-|g-o-x-x-x-x-x-x-|g-o-x-x-x-x-x-x-|g-o-x-x-x-x-----|

T |----------------|----------------|----------------|----------------|

T2|----------------|----------------|----------------|----------------|

S |----o---------o-|----o---------o-|----o---------o-|----o-------fo-f|

F |o---------------|----------------|----------------|----------------|

B |--o--o-o-oo-o---|--o--o-o-oo-o---|--o--o-o-oo-o---|--o--o-o-oo-----|

1 + 2 + 3 + 4 + 1 + 2 + 3 + 4 + 1 + 2 + 3 + 4 + 1 + 2 + 3 + 4 +

2:13

C |----------------|----------------|----------------|----------------|

H |--o-x-x-x-x-x-x-|g-o-x-x-x-x-----|--o-x-x-x-x-x-x-|x-o-x-x-x-x-x-X-|

T |----------------|------------3---|----------------|----------------|

T2|----------------|-------------3--|----------------|----------------|

S |o---o---------o-|----o----------o|o---o---------o-|----o---------o-|

F |----------------|--------------3-|----------------|----------------|

B |--o--o-o-oo-o---|--o--o-o-oo-----|--o--o-o-oo-o---|--o--o-o-oo-o---|

1 + 2 + 3 + 4 + 1 + 2 + 3 + 4 + 1 + 2 + 3 + 4 + 1 + 2 + 3 + 4 +

 

2nd Chorus 2:22

C |X---------------|X---------------|X---------------|X---------------|

H |--O-O-O-O-O-O-O-|--O-O-O-O-O-O-O-|--O-O-O-O-O-O-O-|--O-O-O-O-------|

T |----------------|----------------|----------------|-----------s----|

T2|----------------|----------------|----------------|------------s---|

S |----o-------o---|----o--d----o---|----o-------o---|----o-----s-----|

F |----------------|----------------|----------------|-------------sss|

B |oo-o--ooo-oo--oo|o-oo--o-o-----o-|oo-o--ooo-oo--oo|o-oo--o-o-------|

1 + 2 + 3 + 4 + 1 + 2 + 3 + 4 + 1 + 2 + 3 + 4 + 1 + 2 + 3 + 4 +

 

2:32

C |X---X-----x-x-x-|----------------|X---------------|X---------------|

H |----------O-O-O-|O-O-O-O-O-O-O-O-|--O-O-O-O-O-O-O-|--O-O-O-O-------|

T |----------------|----------------|----------------|----------------|

T2|----------------|----------------|----------------|----------------|

S |------ddO-------|----o-------o---|----o-------o---|----o-----ddOOO-|

F |----------------|----------------|----------------|----------------|

B |o---o-----o-o-o-|-oo--o-ooo-o-oo-|oo-o--ooo-oo--oo|o-oo--o-o------o|

1 + 2 + 3 + 4 + 1 + 2 + 3 + 4 + 1 + 2 + 3 + 4 + 1 + 2 + 3 + 4 +

 

Outro 2:42 (tempo slowing) 2:48 End

C |X---X-X-X---X-X-|XX-XXX-XX--XX-X-|X---X-X-X-------|X---------------|

H |----------------|----------------|----------------|----------------|

T |----------------|----------------|----------------|----------------|

T2|----------------|----------------|----------------|----------------|

S |--------O-------|--------O-------|--------O-------|----------------|

F |----------------|----------------|-----------OO-O-|----------------|

B |o---o-o-----o-o-|oo-ooo-o---oo-o-|o---o-o-------o-|O---------------|

1 + 2 + 3 + 4 + 1 + 2 + 3 + 4 + 1 + 2 + 3 + 4 + 1 + 2 + 3 + 4 +

 

Note: In the second measure of the Outro, the bass drum actually plays 2 eighth note triplet patterns for counts 1 and 2, notation would be messy with triplets in the bar.

 

 

Return to my 311 drum tabs page

The Tablature is Copyright its respective owners.

Sign Up For My Newsletter
Subscribe | Unsubscribe

Site Map | Disclaimer | Privacy Policy | Media Kit | Submissions/Corrections

Website © 2000-2014 mattsmusicpage.com. All rights reserved.

Legal & DMCA: Matt's Music Page has been providing lyrics and tabs in a legal way, paying royalties each year to a few organizations. Then, all lyrics and tabs were removed from the site. Now, there's a new owner to the site, which purchased it August 26, 2014, and he is in negotiation to obtain licensing from BMI at the moment. If you have a specific DMCA request -- please do not hesitate to contact me via the contact button on top. I will do my very best to keep this site fully legal.

Get our toolbar!

 

VINTAGE SORRENTO MUSIC JEWELRY BOX
$45.0
VINTAGE SORRENTO MUSIC JEWELRY BOX picture


VINTAGE LACQUERED MUSIC BOX JAPAN
$25.99
VINTAGE LACQUERED MUSIC BOX JAPAN picture


Vintage Kehlsteinhaus Bavaria Germany Colorscope Cow Bell View Master Music Box
$8.99
Vintage Kehlsteinhaus Bavaria Germany Colorscope Cow Bell View Master Music Box picture


VINTAGE SCHMIDT Signed Collectible Musical Turning Clown
$9.99
VINTAGE  SCHMIDT Signed Collectible Musical Turning Clown picture


Vintage - Linen - Postcard - Stage - Radio City Music Hall - New York City
$3.75
Vintage - Linen - Postcard - Stage - Radio City Music Hall - New York City   picture