Your One-Stop Source For
Music Lyrics
Bass and Guitar Tabs
and More...
Music Lyrics Bass and Guitar Tabs

 

The Tabs Are Below

Learn To Read Tab
Chords Handbook
Corrections & Additions
Get Official Tab
311 tabs @ 911Tabs

Band: 311

Song : Flowing

Tabber: Americanemu25

 

3x

R |----------------|

H |----------------|

|1e+a2e+a3e+a4e+a|

 

*I’m not 100% sure about the last bar because my CD skips; Feel free to correct*

R |----------------|foofoof---o-ffff|foofoof---ddbboo|foofoof--oo--oo-|

H |--------ddddDDDD|----------------|----------------|----------------|

|1e+a2e+a3e+a4e+a|1e+a2e+a3e+a4e+a|1e+a2e+a3e+a4e+a|1e+a2e+a3e+a4e+a|

|Gradually Open|

 

R |o-----------|

|1e+a2e+a3e+a|

 

*Ck: Click sticks together*

Ck|C---C---C-------|

S |------------f---|

B |----------o-o---|

|1e+a2e+a3e+a4e+a|

 

|------------------------3x-------------------------|

C |---x-----x--|---x-----x--|---x-----x--|---x-----x--|

H |0-----0-----|0-----0-----|0-----0-----|0-----0-----|

S |---o-----o--|---o-----o--|---o-----o--|---o-----o--|

B |o--o--o-oo-o|o--o-o--oo-o|--oo--o-oo-o|--oo-ooo-o-o|

|1+a2+a3+a4+a|1+a2+a3+a4+a|1+a2+a3+a4+a|1+a2+a3+a4+a|

 

C |---x-----x--|---x-----x--|---x-----x--|------------|

H |0-----0-----|0-----0-----|0-----0-----|0-----------|

t |------------|------------|------------|------dd----|

T |------------|------------|------------|--------d---|

S |---o-----o--|---o-----o--|---o-----o--|---ddd------|

F |------------|------------|------------|---------ddd|

B |o-oo-o--oo-o|o-oo-o--oo-o|o-o-ooo-o-oo|o-o---o--o--|

|1+a2+a3+a4+a|1+a2+a3+a4+a|1+a2+a3+a4+a|1+a2+a3+a4+a|

 

|------------3x-No Crash 2nd and 3rd time------------|

C |x-----------|------------|------------|------------|

R |---x--x--x--|x--x--x--x--|x--x--x--x--|x--x--x--x--|

S |---o-----o--|---o-----o--|---o-----o--|---o-----o--|

B |o-o-ooo-o-oo|o-o-oo-oo-oo|o-o-ooo-o-oo|o-o-oo-oo-oo|

|1+a2+a3+a4+a|1+a2+a3+a4+a|1+a2+a3+a4+a|1+a2+a3+a4+a|

 

C |1--1--1--1--|1--1--1-2---|1-----------|------------|

R |------------|------------|---x--x--x--|x--x--x--x--|

S |--o---o-o--o|--go-go-----|---o-----o--|---o-----o--|

B |o--o--o--o--|o--o----o--o|o-o-ooo-o-oo|o-o-ooo-o-oo|

|1+a2+a3+a4+a|1+a2+a3+a4+a|1+a2+a3+a4+a|1+a2+a3+a4+a|

 

C |1--1--1--1--|1--1--1-2---|1-----------|------------|

R |------------|------------|---x--x--x--|x--x--x--x--|

S |--o---o-o--o|--go-go-----|---o-----o--|---o--o--o--|

B |o--o--o--o--|o--o----o--o|o-o-ooo-o-oo|o-o-oo-oo-oo|

|1+a2+a3+a4+a|1+a2+a3+a4+a|1+a2+a3+a4+a|1+a2+a3+a4+a|

 

C |1--2-----x--|---x-----x--|---x-----x--|---x-----x--|

H |------0-----|0-----0-----|0-----0-----|0-----0-----|

S |---o-----o--|---o-----o--|---o-----o--|---o-----o--|

B |o--o--o-oo-o|o--o-o--oo-o|--oo--o-oo-o|--oo-ooo-o-o|

|1+a2+a3+a4+a|1+a2+a3+a4+a|1+a2+a3+a4+a|1+a2+a3+a4+a|

 

C |---x-----x--|---x-----x--|---x-----x--|---x-----x--|

H |0-----0-----|0-----0-----|0-----0-----|0-----0-----|

S |---o-----o--|---o-----o--|---o-----o--|---o----do--|

B |o--o--o-oo-o|o--o-o--oo-o|--oo--o-oo-o|--oo-oo--o--|

|1+a2+a3+a4+a|1+a2+a3+a4+a|1+a2+a3+a4+a|1+a2+a3+a4+a|

 

C |#--#--#--#--|#--#--#--1-2|1--2-----1--|---1-----1--|

H |------------|------------|-------0----|0-----0-----|

S |------------|------------|---o-----o--|---o-----o--|

B |o--o--o--o--|o--o--o--o-o|o--o-o-o-o-o|o--o-o-o-o-o|

|1+a2+a3+a4+a|1+a2+a3+a4+a|1+a2+a3+a4+a|1+a2+a3+a4+a|

 

C |---1-----1--|---1-----1--|---1-----1--|2-----------|

H |0-----0-----|0-----0-----|0-----0-----|------------|

t |------------|------------|------------|------dd----|

T |------------|------------|------------|--------d---|

S |---o-----o--|---o-----o--|---o-----o--|---ddd------|

F |------------|------------|------------|---------ddd|

B |o-oo-o--oo-o|o-oo-o--oo-o|o-o-ooo-o-oo|o-o---o--o--|

|1+a2+a3+a4+a|1+a2+a3+a4+a|1+a2+a3+a4+a|1+a2+a3+a4+a|

 

C |x-----------|------------|------------|------------|

R |---x--x--x--|x--x--x--x--|x--x--x--x--|x--x--x--x--|

S |---o-----o--|---o-----o--|---o-----o--|---o-----o--|

B |o-o-ooo-o-oo|o-o-oo-oo-oo|o-o-ooo-o-oo|o-o-oo-oo-oo|

|1+a2+a3+a4+a|1+a2+a3+a4+a|1+a2+a3+a4+a|1+a2+a3+a4+a|

 

R |x--x--x--x--|x--x--x--x--|x--x--x--x--|x--x--x--x--|

S |---o-----o--|---o-----o--|---o-----o--|---o-----o--|

B |o-o-ooo-o-oo|o-o-oo-oo-oo|o-o-ooo-o-oo|o-o-oo-oo-oo|

|1+a2+a3+a4+a|1+a2+a3+a4+a|1+a2+a3+a4+a|1+a2+a3+a4+a|

 

C |1--1--1--1--|1--1--1-2---|1-----------|------------|

R |------------|------------|---x--x--x--|x--x--x--x--|

S |--o---o-o--o|--go-go-----|---o-----o--|---o-----o--|

B |o--o--o--o--|o--o----o--o|o-o-ooo-o-oo|o-o-ooo-o-oo|

|1+a2+a3+a4+a|1+a2+a3+a4+a|1+a2+a3+a4+a|1+a2+a3+a4+a|

 

C |1--1--1--1--|1--1--1-2---|1-----------|------------|

R |------------|------------|---x--x--x--|x--x--x--x--|

S |--o---o-o--o|--go--go----|---o-----o--|---o--o--o--|

B |o--o--o--o--|o--o----o--o|o-o-ooo-o-oo|o-o-oo-oo-oo|

|1+a2+a3+a4+a|1+a2+a3+a4+a|1+a2+a3+a4+a|1+a2+a3+a4+a|

 

C |1--2-----1--|---1-----1--|---1-----1--|---1-----1--|

H |------0-----|0-----0-----|0-----0-----|0-----0-----|

S |---o-----o--|---o-----o--|---o-----o--|---o-----o--|

B |o--o--o-oo-o|o--o-o--oo-o|--oo--o-oo-o|--oo-ooo-o-o|

|1+a2+a3+a4+a|1+a2+a3+a4+a|1+a2+a3+a4+a|1+a2+a3+a4+a|

 

C |---x-----x--|---x-----x--|---x-----x--|---x-----x--|

H |0-----0-----|0-----0-----|0-----0-----|0-----0-----|

S |---o-----o--|---o-----o--|---o-----o--|---o----do--|

B |o--o--o-oo-o|o--o-o--oo-o|--oo--o-oo-o|--oo-oo--o--|

|1+a2+a3+a4+a|1+a2+a3+a4+a|1+a2+a3+a4+a|1+a2+a3+a4+a|

 

C |1-----c--2--|2--c--1--1--|2--1--2--1--|---1-----1--|

R |---x--------|------------|------------|------------|

H |------------|------------|------------|0-----0-----|

S |------------|------------|---o-----o--|---o-----o--|

B |o--o--o--o-o|o--o--o--o-o|o--o-o-o-o-o|o--o-o-o-o-o|

|1+a2+a3+a4+a|1+a2+a3+a4+a|1+a2+a3+a4+a|1+a2+a3+a4+a|

 

C |---x-----x--|---x-----x--|---x-----x--|f-----------|

H |0-----0-----|0-----0-----|0-----0-----|------------|

S |---o-----o--|---o-----o--|---o-----o--|------------|

B |o-oo-o--oo-o|o-oo-o--oo-o|o-o-ooo-o-oo|o-----------|

|1+a2+a3+a4+a|1+a2+a3+a4+a|1+a2+a3+a4+a|1+a2+a3+a4+a|

 

 

 

Return to my 311 drum tabs page

The Tablature is Copyright its respective owners.

Sign Up For My Newsletter
Subscribe | Unsubscribe

Site Map | Disclaimer | Privacy Policy | Media Kit | Submissions/Corrections

Website © 2000-2014 mattsmusicpage.com. All rights reserved.

Legal & DMCA: Matt's Music Page has been providing lyrics and tabs in a legal way, paying royalties each year to a few organizations. Then, all lyrics and tabs were removed from the site. Now, there's a new owner to the site, which purchased it August 26, 2014, and he is in negotiation to obtain licensing from BMI at the moment. If you have a specific DMCA request -- please do not hesitate to contact me via the contact button on top. I will do my very best to keep this site fully legal.

Get our toolbar!